Tab - French Cancan



Si si si, j'en suis sûre vous connaissez !



Un ptit French Cancan, perso sa me fait penser a Luky Luke quand il va au Salon (Western)




A-------------------------0--------------------------3-2-0--------------
E---------1-0---3-3---3---0-1-----------1-0---------------3-1-0------
C--0-0-2-----2-----------------2-2---2-------2-0-----------------2---
G------------------------------------------------------------------------

A-------------------------0-----------------------------------------
E---------1-0---3-3---3---0-1----------1-0-----3---0------------
C--0-0-2-----2-----------------2-2---2-----2-0---2---0-0-------
G-------------------------------------------------------------------






Tags : débutant

Leave a comment

We need to verify that you are not a robot generating spam.

See legal mentions

Don't forget that insults, racism, etc. are forbidden by Skyrock's 'General Terms of Use' and that you can be identified by your IP address (54.198.41.76) if someone makes a complaint.

Comments :

  • ukulele4ever

    10/11/2012

    Visiteur wrote: "Je comprends pas grand choses il faut avoir fait du solfège ?"

    Non non, du tout, il ne faut pas avoir fait du solfège pour comprendre.

    Juste une petite explication est c'set parti :

    - - - - -
    - - - - -
    - - - - -
    - - - - -

    --> représente tes 4 cordes de ukulélé

    les chiffres indiqué dessus, t'indiquent la case a devoir appuyé sur ton manche

    Par ex :

    - - - - -
    - - - - -
    - - 3- -
    - - - - -

    = sur la 2ème cordes, joué la 3ème case.

    Ainsi de suite

    ex

    - - - - - - - - -- - -
    - - - - - - - - - -1 -
    - - 3- - - 0- - - - -
    - - - - - - - - - - - -

    = sur la 2ème corde jouer la 3ème case
    ensuite
    sur la 2ème corde jouer la corde a vite (=0)
    et finalement
    Sur la 3ème corde, jouer la premier case du manche

    C'est plus facile pour qq'un qui ne connait pas le solfège , on utilise les TABLATURE au lieu de donner les nots sur une portée.

    Voila voila

  • Visiteur

    09/11/2012

    Je comprends pas grand choses il faut avoir fait du solfège ?

  • nostalgie-secrete

    01/10/2012

    MERCI SUPERBE BLOG¨¨

  • a-blocked-page

    26/01/2012

    Je ne reconnais pas du tout !

  • Powaa-nico

    28/07/2010

    Et de 1 morceaux appriis ^^

  • Augustin

    17/04/2010

    voilà ce que j'ai trouver pour "le bon, la brute et le truand"

    A--0-5-0-5-0-------------0-5-0-5-0-------------0-5-0-5-0-----------------0-5-0-5-0-----------|
    E--------------------------------------------------8-------------------------------------------------------|
    C---------------5--7--2------------------5--7--------------------5--4--2--0-----------------5-2----|
    G----------------------------------------------------------------------------------------------------------|

  • ukulele4ever

    01/03/2010

    Si si, c'est possible a faire.

    Mais il est vrai que la tab est plutôt serée, je devrais essayer de l'espacé/aéré , pour la rendre plus lisible.

  • phinoo

    28/02/2010

    c' est impossible à faire , non ?

  • rdsdu68

    05/03/2008

    Hello!
    D'abord félicitation pour ton travail, ce blog est super!
    Ensuite, j'ai moi aussi un pe travaillé sur le bon la brute et le truand et voilà c'que ça donne :
    ----10----10---------------------------10----10-------------8----10---10--------------------------------10---10-----------
    -10----10----10---6--8--3----10----10----10---6--8----10---10---10---6----5---3----1--10---10-----10----8---3
    -----------------------------------------------------------------------------------------------------
    ----------------------------------------------------------------------------------------------------
    Je trouve que ça sonne plus juste...c'est juste l'histoire de quelques demi-tons mais voilà ^^
    Allé ciao, et bon ukuleléation!

  • Tarik

    01/08/2007

    Salut j'adore ton blog et j'y ai appris beaucoup de choses !
    Si sa vous intéresse j'ai la tablature pour ukulélé de " The Good The Bad And The Ugly"

    Voila :

    ----10----10----------------------10----10------------8----10---10----------------------------10---10-------
    -10----10----10---6--8--3----10----10----10---6--8----10---10---10---8----6---4----2--10---10----8---3
    -----------------------------------------------------------------------------------------------------
    ----------------------------------------------------------------------------------------------------
    a++ :)

Report abuse