TiTaNiC

TITANIC


A-3-3-3-3-3-2-3---3-2-3---5-7-5--3-3-3-3-3-2-3----------
E---------------------------------------------------------------
C---------------------------------------------------------------
G---------------------------------------------------------------

A vous de décider le moment pour passer a la suite ;



A-3-5--10-8-7-5-7-8-7-5-3-2-3-3-2-3-5-7-5-3-3---
E-----3--------------------------------------------------
C--------------------------------------------------------
G--------------------------------------------------------









Tags : débutant

Leave a comment

We need to verify that you are not a robot generating spam.

See legal mentions

Don't forget that insults, racism, etc. are forbidden by Skyrock's 'General Terms of Use' and that you can be identified by your IP address (54.198.41.76) if someone makes a complaint.

Comments :

  • MysteriesTitanic

    30/12/2015

    Bonjour, je suis fan du Titanic, non seulement du film mais de son histoire.
    Je viens de réactualiser mon blog donc si vous voulez y jeter un oeil ça me ferait très plaisir. A bientôt j'espère :)

  • DébutanteSuperNulleBonjour D

    17/07/2011

    Wahou. Juste un énorme MERCI pour ton blog sur lequel je suis tombée par hasard ! :D
    Je n'arrivais à rien, tout me paraissait impossible (sauf One love :p) et POUF, j'atteris sur ton blog, puis en une demi heure j'arrive à faire pas mal de choses :p
    Ma plus grande fierté...TITANIC bien sûr ;)
    Enfin bref, encore un énorme MERCI :D
    Bisous ♥

  • Boris

    25/06/2010

    A-3-3-3-3-3-2-3---3-2-3---5-7-5--3-3-3-3-3-2-3----------
    E---------------------------------------------------------------
    C---------------------------------------------------------------
    G---------------------------------------------------------------

    A vous de décider le moment pour passer a la suite ;

    A-3-2--10-8-7-5-7-8-7-5-3-2-3-3-2-3-5-7-5-3-3---
    E-----3--------------------------------------------------
    C--------------------------------------------------------
    G--------------------------------------------------------

  • ukulele4ever

    21/04/2010

    Merci olivier,

    Bien bien, Titanic en 20 min

    Bon apprentissage,

    Et je te souhaite plein de moment sympa en compagnie de ton uku

  • olivier

    21/04/2010

    bonjour le créateur du ce blog qui est ÉNORME et TERRIBLE!!!
    Voila je viens de commencer a jouer du ukulélé, et j'ai choisi le titanic car il est simple a jouer,
    en l'espace de 20 min je le savais :) et maintenant je suis content !!!

    Je voulais te remercier pour avoir fait ce blog car il va surement initier plein de personne dont moi!

    A bientôt bonne journée

  • Tarzane007

    27/01/2010

    ça j'y arrive ^^'

  • popol-38

    03/12/2009

    J'en avais trouver une de melodire de titanic ca fesait:
    A-3-3-3-3-3-2-3---3-2-3---5-7-5--3-3-3-3-3-2-3-------0-----3-5-----10-8-7-5-7-8-7--5--3-2-3-3-2-3--5-7-5--3----------------
    E---------------------------------------------------------------3--------------3-------------------------------------------------------------------------

    VOILA =)
    bizx

  • ukulele4ever

    28/11/2009

    C'est pas mal du tout ! Merci pour ton partage de video !

  • Xababa

    28/10/2009

    Bon voilà j'ai fait ce que j'ai pu, c'est pas parfait mais ca donne un aperçu du boulot^^ :

    http://www.youtube.com/watch?v=Mt79MrF9pm8

    Voilà ;)

  • ukulele4ever

    25/08/2009

    Merci Xababa.

    Et bien, a très bientôt, pour le visionnage de ta vidéo.

    ;o)

Report abuse