Je l'aime a mourir

Play the video


]Voici une petite remise a jour de la partition; car le lien précédent n'étant plus accessible...
et que plusieurs internautes souhaitaient pouvoir jouer cette partition/tab...





Version, simplifiée ;


----2-2-2-2--0-0-0----------------2-2-2-2--0-0-0--------------0---------2-------------------
------------------------3-3-3--------------------------3-3-3---3----3--3-----------------------
-2---------------------------------2----------------------------------------------------------2--
--------------------------------------------------------------------------------------------------



---3-3-3-3--2-2-2--0-0-0-------3-3-3-3---2--2--0-0-0------0----
---------------------------------------------------------------3---3--
---------------------------------0------------------------------------
----------------------------------------------------------------------



--0-2---0---0-2-----0----0--2---------------------
-------3---3-------3---3-----------------2--2------
------------------------------------------------------
------------------------------------------------------


--2-2-2-2--0-0-0----------------2-2-2-2--0-0-0--------------0---------2-------------------
----------------------3-3-3--------------------------3-3-3---3----3--3-----------------------
---------------------------------2----------------------------------------------------------2--
------------------------------------------------------------------------------------------------



---3-3-3-3--2-2-2--0-0-0-------3-3-3-3---2--2--0-0-0------0----
---------------------------------------------------------------3---3--
---------------------------------0------------------------------------
----------------------------------------------------------------------



--0-2---0---0-2-----0----0--2-------------------
-------3---3-------3---3-----------------2--2----
---------------------------------------------------
---------------------------------------------------







Les accords pour Ukulélé acordé en DO sont disponibles ICI




Le mouvement de la main droite effectué pour les accords ; haut-bas-haut-bas-(silence)-bas-haut






Paroles

Moi je n'étais rien et voilà qu'aujourd'hui,
Je suis le gardien du sommeil de ses nuits. Je l'aime à mourir
Vous pouvez détruire tout ce qui vous plaira
Elle n'a qu'à ouvrir l'espace de ses bras
Pour tout reconstruire. Pour tout reconstruire. Je l'aime àmourir

Elle a gommé les chiffres des horloges du quartier
Elle a fait de ma vie des cocottes en papier, des éclats derire
Elle a bâti des ponts entre nous et le ciel
Et nous les traversons à chaque fois qu'elle
Ne veut pas dormir. Ne veut pas dormir. Je l'aime à mourir

Refrain

Elle a dû faire toutes les guerres pour être aussi forteaujourd'hui,
Elle a dû faire toutes les guerres de la vie et l'amour aussi.

Elle vit de son mieux ses rêves d'opaline
Elle danse au milieu des forêts qu'elle dessine. Je l'aime àmourir
Elle porte des rubans qu'elle laisse s'envoler
Elle me chante souvent que j'ai tort d'essayer
De les retenir. De les retenir. Je l'aime à mourir

Pour monter dans sa grotte cachée sous les toits
Je dois clouer des notes à mes sabots de bois. Je l'aime àmourir
Je dois juste m'asseoir, je ne dois plus parler,
Je ne dois rien vouloir, je dois juste essayer
De lui appartenir. De lui appartenir.

Je l'aime à mourir

Refrain...

Elle a dû faire toutes les guerres pour être aussi forteaujourd'hui,
Elle a dû faire toutes les guerres de la vie et l'amour aussi.

Moi je n'étais rien et voilà qu'aujourd'hui,
Je suis le gardien du sommeil de ses nuits. Je l'aime à mourir
Vous pouvez détruire tout ce qui vous plaira
Elle n'a qu'à ouvrir l'espace de ses bras
Pour tout reconstruire. Pour tout reconstruire. Je l'aime àmourir







Tags : facile - picking - partition

Leave a comment

We need to verify that you are not a robot generating spam.

See legal mentions

Don't forget that insults, racism, etc. are forbidden by Skyrock's 'General Terms of Use' and that you can be identified by your IP address (54.196.86.89) if someone makes a complaint.

Comments :

  • ukulele4ever

    22/01/2013

    kerby wrote: "salut impossible d'avoir les accords !!"

    Salut Kerby,

    Les accords sous format PDF , sous le lien ci dessous

    http://xjeje33.pagesperso-orange.fr/FRANCISCABREL.pdf

    En espérant que cela fonctionne, sinon refait signe.

    Céline.

  • kerby

    22/01/2013

    salut impossible d'avoir les accords !!

  • ukulele4ever

    14/12/2010

    Gabriel wrote: "Celle-ci est vraiment bien je trouve http://www.youtube.com/watch?v=AY1KnENLsTk à vos p'tits doigts ;)"

    Effectivement, pas mal du tout !!

  • Gabriel

    02/12/2010

    Celle-ci est vraiment bien je trouve http://www.youtube.com/watch?v=AY1KnENLsTk à vos p'tits doigts ;)

  • ukulele4ever

    12/06/2010

    japanfan wrote: "Pour la vidéo, mauvaise qualité mais bon.. http://www.youtube.com/watch?v=0BSfu0x8dO8
    Je n'en ai pas trouvé d'autres :s
    "

    Idem,

    C'est la seule que j'ai pu revoir sur Youtube, sinon toutes les autres ont été retirée pour cause de droit d'auteurs.

  • japanfan

    12/06/2010

    Pour la vidéo, mauvaise qualité mais bon.. http://www.youtube.com/watch?v=0BSfu0x8dO8
    Je n'en ai pas trouvé d'autres :s

  • ukulele4ever

    07/06/2010

    raphl-minishop wrote: "Hello. Est-tu sure que cest avec un ukulele qu'il joue?? :s
    Car je suis aller au concert & c'est avec une mandoline qu'il jouer.
    Mais peut-etre que c'est encore une autre version.. ^^"
    "

    Oui oui, certaine qu'il avait un ukulele sur la vidéo

    (par contre la video ne semble plus valide??)

    J'ai même eu une copie d'un article le montrant av son uku, disant comment il avait eu l'idée de jouer cette chanson avec, et l'article journal y proposait les accords également.

    Par contre, il se peut qu'il ai déja joué cette chanson av une mandoline?!??

  • raphl-minishop

    07/06/2010

    Hello. Est-tu sure que cest avec un ukulele qu'il joue?? :s
    Car je suis aller au concert & c'est avec une mandoline qu'il jouer.
    Mais peut-etre que c'est encore une autre version.. ^^"

  • romain

    28/12/2009

    JE SUIS DE PASSAGE SUPER TON BLOG PEU DE PERSONNE ONT EU CETTE IDD2E MERCI

  • ma-philosophie-a-moi

    19/08/2009

    Salut ! Premiérement félicitaions pour tpon blog, et deuxiémement, la vidéo ne fonctionne pas>< Merci d'avance ++

Report abuse