LeTtRe à EliSe (Beethoven)


--- 7 -------- 7 --------- 7 --------- 5 --------------- 3 -------------------------------- 5 --------------------------
-------------------------------------------------------------------- 0 --------- 0 ------------------- 0 --------- 0 ---
-------------------------------------------------------------------------- 0 ------------------------------- 0 ---------
--------- 8 -------- 8 --------- 4 --------- 5 --- 2 --------- 2 -------------------- 4 --------- 4 --------------------



--------- 7 --------------- 7 --------- 7 --------- 7 --------- 5 --------------- 3 ----------------------------
--------------------- 0 --------------------------------------------------------------------- 0 --------- 0 ----
--------------------------------------------------------------------------------------------------- 0 -----------
--- 5 --------- 5 --------------- 8 --------- 8 --------- 4 --------- 5 --- 2 --------- 2 -----------------------



--------- 5 --------------- 3 --------- 0 --------------------- 7 --------- 7 --------- 7 --------- 5 ----------
--------------------- 0 --------------------------- 0 -----------------------------------------------------------
--------------------------------------------------------- 0 ----------------------------------------------------
--- 4 --------- 4 --------------- 4 --------- 0 --------------------- 8 --------- 8 --------- 4 --------- 5-----



--------- 3 --------------------------------- 5 --------------------------------- 7 --------------- 7 -----------
--------------------- 0 --------- 0 --------------------- 0 --------- 0 --------------------- 0 -----------------
--------------------------- 0 --------------------------------- 0 -----------------------------------------------
--- 2 --------- 2 --------------------- 4 --------- 4 --------------------- 5 --------- 5 --------------- 8 -----



--- 7 --------- 7 --------- 5 --------------- 3 --------------------------------- 5 --------------- 3 -----------
--------------------------------------------------------- 0 --------- 0 --------------------- 0 -----------------
--------------------------------------------------------------- 0 -----------------------------------------------
--------- 8 --------- 4 --------- 5 --- 2 --------- 2 --------------------- 4 --------- 4 --------------- 4 -----



--- 0 --------------------------------- 0 --------- 0 --------- 3 --------- 7 --------------- 7 --- 8 --- 7 ----
--------------- 0 --------- 0 --------------------------------------------------------- 8 ----------------------
--------------------- 0 --------------------------------------------------------- 7 ----------------------------
--------- 0 --------------------- 0 --------- 0 --------- 4 --------- 7 ----------------------------------------



--- 5 --------------- 5 --- 7 --- 5 --- 3 --------------- 3 --- 5 --- 3 --- 2 --------------- 2 --- 5 --- 6 -----
--------------- 7 --------------------------------- 5 --------------------------------- 4 ----------5 -----------
--------- 5 --------------------------------- 4 --------------------------------- 2 ----------------5------------
----------------------------------------------------------------------------------------------------5------------



--- 7 --- 7 --------- 7 --------- 7 --------- 7 --------- 7 --------- 7 --------- 7 -------------
--- 4 --------- 0 --------------------- 0 --------------------- 0 --------------------- 0 -------
--- 4 -------------------------------------------------------------------------------------------
--- 4 --------------------- 8 --------------------- 8 --------------------- 8 -------------------



--- 7 ------- 7 -------- 7 -------- 7 -------- 7 -------- 5 -------------- 3 --------------------------
------------------------------------------------------------------------------------- 0 --------- 0 ---
------------------------------------------------------------------------------------------- 0 ---------
---------8-------- 8 -------- 8 -------- 8 -------- 4 -------- 5 --- 2 -------- 2 --------------------



--------- 5 --------------------------------- 7 --------------- 7 --------- 7 --------- 7 --------- 5 ---------
--------------------- 0 --------- 0 --------------------- 0 ---------------------------------------------------
--------------------------- 0 ---------------------------------------------------------------------------------
--- 4 --------- 4 --------------------- 5 --------- 5 --------------- 8 --------- 8 --------- 4 --------- 5 ---



--------- 3 --------------------------------- 5 --------------- 3 --------- 0 ---------------------------------
--------------------- 0 --------- 0 --------------------- 0 --------------------------- 0 --------- 0 ---------
--------------------------- 0 --------------------------------------------------------------- 0 ---------------
--- 2 --------- 2 --------------------- 4 --------- 4 --------------- 4 --------- 0 --------------------- 0 ---


--- 0 --------- 0 --------- 3 --------- 7 --------------- 7 --- 8 --- 7 --- 5 -------------- 5 --- 7 --- 5 ---
--------------------------------------------------- 8 -------------------------------- 7 ---------------------
--------------------------------------------- 7 -------------------------------- 5 ---------------------------
--------- 0 --------- 4 --------- 7 --------------------------------------------------------------------------



--- 3 --------------- 3 --- 5 --- 3 --- 2 --------------- 2 ---5 --- 6 --- 7 --- 7 -----------
--------------- 5 --------------------------------- 4 ---------5 ---------- 4--------- 0 -----
--------- 4 --------------------------------- 2 ---------------5 ---------- 4-----------------
---------------------------------------------------------------5 ---------- 4-----------------



--- 7 --------- 7 --------- 7 --------- 7 --------- 7 --------- 7 --------- 7 --------- 7 --------- 7 ---------
--------------------- 0 --------------------- 0 --------------------- 0 ---------------------------------------
---------------------------------------------------------------------------------------------------------------
--------- 8 --------------------- 8 --------------------- 8 --------------------- 8 --------- 8 --------- 8 ---



--- 7 --------- 7 --------- 5 --------------- 3 -------------------------------- 5 ---------------------------
-------------------------------------------------------- 0 --------- 0 --------------------- 0 --------- 0 ---
-------------------------------------------------------------- 0 --------------------------------- 0 ---------
--------- 8 --------- 4 --------- 5 --- 2 -------- 2 --------------------- 4 --------- 4 ---------------------



--------- 7 --------------- 7 --------- 7 --------- 7 --------- 5 --------------- 3 ---------------------------
--------------------- 0 --------------------------------------------------------------------- 0 --------- 0 ---
--------------------------------------------------------------------------------------------------- 0 ---------
--- 5 --------- 5 --------------- 8 --------- 8 --------- 4 --------- 5 --- 2 --------- 2 ---------------------



--------- 5 --------------- 3 --------- 0 --------- 5 --------- 7 ------------12 ---------------
--------------------- 0 -------------------------------------------------------12 ---------------
-------------------------------------------------------------------------------12 ---------------
--- 4 --------- 4 --------------- 4 --------- 5 --------- 8 --------- 12 -----------------------




Tags : picking - débutant

Leave a comment

We need to verify that you are not a robot generating spam.

See legal mentions

Don't forget that insults, racism, etc. are forbidden by Skyrock's 'General Terms of Use' and that you can be identified by your IP address (54.198.41.76) if someone makes a complaint.

Comments :

  • ukulele4ever

    27/04/2012

    Ukadid wrote: "Hello!!

    Merci beaucoup pour ce site qui m'est très utile en tant que grande débutante!

    Petite question (probablement un peu bête) :
    Je ne comprend pas bien comment lire ce genre de tablatures car il y a 8 lignes au lieu de 4... Peux-tu m'expliquer stp?

    Merci d'avance!!
    "

    8 lignes ?

    Cela doit être une erreur d'affichage...

    Car la partition doit être de 4 ligne en 4 ....
    représentant a chaque fois les 4 cordes (G C E A ) du ukulélé...

    --- 7 -------- 7 --------- 7 --------- 5 --------------- 3 -------------------------------- 5 --------------------------
    -------------------------------------------------------------------- 0 --------- 0 ------------------- 0 --------- 0 ---
    -------------------------------------------------------------------------- 0 ------------------------------- 0 ---------
    --------- 8 -------- 8 --------- 4 --------- 5 --- 2 --------- 2 -------------------- 4 --------- 4 --------------------

    et

    --------- 7 --------------- 7 --------- 7 --------- 7 --------- 5 --------------- 3 ----------------------------
    --------------------- 0 --------------------------------------------------------------------- 0 --------- 0 ----
    --------------------------------------------------------------------------------------------------- 0 -----------
    --- 5 --------- 5 --------------- 8 --------- 8 --------- 4 --------- 5 --- 2 --------- 2 -----------------------

  • Ukadid

    25/04/2012

    Hello!!

    Merci beaucoup pour ce site qui m'est très utile en tant que grande débutante!

    Petite question (probablement un peu bête) :
    Je ne comprend pas bien comment lire ce genre de tablatures car il y a 8 lignes au lieu de 4... Peux-tu m'expliquer stp?

    Merci d'avance!!

  • cilèste

    06/11/2009

    je suis d'accord avec Maikeul a moins de connaitre le rythme et les accords par coeur dans sa tête avant mème de la jouer . une personne n'ayant jamais joué cette musique aupparavant ne poura jamais avoir la musique parfaite sans accord . mais rassures toi c'est le seul petit défaut que j'y ai trouvé autrement out est parfait ,merci beaucoup

  • clara

    06/11/2009

    ,LE RYTHME LES ACCORDS JE DOIS LES FAIRE COMMENT ??????????? XD en tout merci pour ce site c'est génial

  • Nikolao

    27/10/2009

    Bonjour, moi aussi j'ai un pb avec le 2-0-0-0... ça sonne curieux comme dirait l'autre.
    En tout cas merci pour ce site riche.
    Niko

  • ukulele4ever

    12/10/2009

    Bonjour,

    tu as laissé un commentaire sur mon skyblog.

    Tu demandais a quoi se raportais les chiffres 11 , 3 , etc etc pour la lecture d'une tablature Ukulélé.

    En faite, il s'agit simplement des case qui sont sur le manche du Uku.

    11 = 11 ème case a jouer

    3 = 3 eme , etc

    Voici un article bref et assez précis

    http://ukulele4ever.skyrock.com/1652982208-Comment-lire-une-tablature.html

    N'hésite pas si tu as d'autres questions.

  • xox-Mathilde-xox

    08/10/2009

    Bonjour, je voudrais juste un renseignement, a quoi correspond les chiffres 11 ou 9 ou 7 ??
    merci de me répondre par mon blog

  • Hollywest

    01/09/2009

    Oui c'est vrai que les O -O-O ne colle pas , je sais pas trop se que c'est, sinon, en l'honneur du king of pop tu pourrais nous mettre, si tu trouve, 1 ou 2 tablatures, ce serait mais grandiose quoi ! Ebcore merci pouyr ton site, il est vraiment genial

  • nathan

    24/06/2009

    --- 7 -------- 7 --------- 7 --------- 5 --------------- 3 -------------------------------- 5 --------------------------
    -------------------------------------------------------------------- 0 --------- 0 ------------------- 0 --------- 0 ---
    -------------------------------------------------------------------------- 0 ------------------------------- 0 ---------
    --------- 8 -------- 8 --------- 4 --------- 5 --- 2 --------- 2 -------------------- 4 --------- 4 --------------------

    le 0-------------0
    ---------0-------ne colle pas.

  • alex

    17/03/2009

    Je suis le seul à trouver un problème à cette tablature??

    moi ça colle pour les 9 premières nottes, mais a partir du 3, c'est plus bon.

    pourtant mon uké est bien accordé, je viens de vérifier

Report abuse