Stairway to heaven

Play the video



Stairway to Heaven est une des chansons les plus célèbres du groupe de rock britannique Led Zeppelin. Elle est écrite et composée par Jimmy Page et Robert Plant.



--------------0---2-----------2---3----------3----------------0----------------0-------------------2---0---0------0-/8-7---
----------0-----------0---------------0-----------2-------2----------------1-----------1-----------3---0---0-----------------
------0-------------------0---------------0-----------2----------------0--------------------0-------2---0---0----------------
--2---------------1----------------0---------------2----------------2----------------------------2--0---2---2----------------


--------------0---2-----------2---3----------3----------------0----------------0-------------------2---0---0---
----------0-----------0---------------0-----------2-------2----------------1-----------1-----------3---0---0---
------0-------------------0---------------0-----------2----------------0--------------------0-------2---0---0---
--2---------------1----------------0---------------2----------------2----------------------------2--0---2---2---


---0---2---3-----------3---0------------0---0------------0---2h3-------0---2---3------------3---2-----------
--------------------0------------2-----------------1---------------------0-----------------0----------------3-------
----------------0------------2-------2--------0-------0----------------------------------------0----------------2--
-------------------------------------------------------------------2---------------------------------------0-----------


--2---2p0---0-----------
-------3------2-----------
-------2------2-----------
---------------------------


---0---2---3-----------3---0------------0---0------------0---2h3-------0---2---3------------3--------------0---7---7---7-
--------------------0------------2-----------------1---------------------0---------------------0---------------2------5---5---5-
----------------0------------2------2---------0-------0-----------------------------------0---------------2----------5---5---5-
-------------------------------------------------------------------2-------------------------------------2---------------5---5---5-


--------------0---2-----------2---3----------3----------------0----------------0-------------------2---0---0--------0-/8-7--
----------0-----------0---------------0-----------2-------2----------------1-----------1-----------3---0---0-----------------
------0-------------------0---------------0-----------2----------------0--------------------0-------2---0---0-----------------
--2---------------1----------------0---------------2----------------2----------------------------2--0---2---2-----------------


--------------0---2-----------2---3----------3----------------0----------------0--------------------2---0----0---------2--
----------0-----------0---------------0-----------2-------2----------------1-----------1------------3---0----0---------3--
------0-------------------0---------------0-----------2----------------0--------------------0--------2---0----0---------2--
--2---------------1---------------0---------------2----------------2----------------------------2----0---2----2---------0--


--------------------------------------0-----0---------------------------------------2----0------------0----------------
---3-----3---3---3---3-----0-----3-----2-----3-----3---3---3---3-----0-----3----2-----3-----2-----3----------
---0-----0---0---0---0-----0-----2-----2-----0-----0---0---0---0-----0-----4----2-----0-----2-----0----------
---0-----0---0---0---0-----0-----2-----2-----0-----0---0---0---0-----0-----0----2-----0-----2-----0----------


----------------------------0---0---------------------------------------2---0--------0--------
--3---3---3---3-----0---3---2-----3-----3---3---3---3-----0-----3---2---3---2--------
--0---0---0---0-----0---2---2-----0-----0---0---0---0-----0-----4---2---0---2--------
--0---0---0---0-----0---2---2-----0-----0---0---0---0-----0-----0---2---0---2--------


-0h2---3-----------3---2-----------2---2h3--------------0-----0---2---3-----------3---2------------2---0----
-----------------0---------------3-----------------0-----0---------------------------0----------------3---1---0-----
-------------0---------------2------------------------0---------------------------0----------------2-------0---0-----
--------------------------0-----------------2---------------------------------------------------0-----------2---2-----


--0---2---3-----------3---2-----------2---0-----0---0---0-----0---0---0-----0-----3-----3-----3-----3---
-------------------0----------------3--------2-----0---2---3-----0---2---3-----3-----0-----2-----0-----2---
---------------0----------------2------------2-----2---2---2-----2---2---2-----2-----0-----0-----0-----0---
----------------------------0---------------- 2-----2---2---2-----2---2---2-----2-----0-----0-----0-----0---


---0---0---0-----0---0---0-----0---0---0-----0-----0-----3-----3-----0-----
---0---2---3-----0---2---3-----0---2---3-----3-----2-----0-----2-----3-----
---2---2---2-----2---2---2-----2---2---2-----2-----2-----0-----0-----2-----
---2---2---2-----2---2---2-----2---2---2-----2-----2-----0-----0-----0-----


-----I--0---0-----2---2-----0---0-----0---0---I
-----I--0---0-----3---3-----1---1-----1---1---I
-----I--0---0-----2---2-----0---0-----0---0---I
-----I--2---2-----0---0-----2---2-----2---2---I


 

Tags : facile - partition

Leave a comment

We need to verify that you are not a robot generating spam.

See legal mentions

Don't forget that insults, racism, etc. are forbidden by Skyrock's 'General Terms of Use' and that you can be identified by your IP address (54.162.253.34) if someone makes a complaint.

Comments :

  • Arnaud

    16/10/2017

    Très sympa. Je propose aussi la partition complète qui ceux qui sont lecteurs

    https://www.partitionsdechansons.com/pdf/15015/Led-Zepelin-Stairway-to-heaven.html

  • Auré

    14/11/2010

    Tellement belle cette chanson

  • jack

    14/07/2010

    lol clair que ca doit faire byzarre niveau sont si on lit la tab a l'envers mdr

  • Jimbo

    24/09/2009

    Vous me faite rire :)... Une tab se lie tejour du bas vers le haut... La corde du bas étant la quatrieme corde du Ukulele étant la corde du haut sur le manche... Voila :)

  • ukulele4ever

    04/09/2009

    Elle provient de la source (cfr en bas a droite de l'article).

    Personnellement j'ai déja testé cette tab en duo avec une guitare électrique, et sa passait bien...

  • Didier

    04/09/2009

    La tabz est fausse :s

  • uku debutant

    18/06/2009

    Dans l'ordre ça donne rien je pense vraiment que la tab est à l'envers

  • ukulele4ever

    12/06/2009

    Boh, possible que ça donne qqch de sympa a l'envers.
    Mais comme elle est la, elle est bien dans le bon ordre ^^

  • Seb

    12/06/2009

    Petite question, elle ne serait pas a l'envers la tab??
    ça marche bien en inversant les cordes

  • supertata49

    11/05/2009

    whouaaaaa !!!

Report abuse