JunGle BeLLs (réponse a Nikouette)


Nikouette
J'ai un ukulélé et j'aime beaucoup ton blog.
Il commence a faire froid et noël approche a grand pas.
Pourrais tu mettre des tablatures de chant de noël si tu en trouve car je galère pr en trouvé.


---------7--5--3-------------------8--7--5---------------8--8--7--8----10----10-------
--5--3-----------------3-------5------------------5---------------------------------------
--------------------------------------------------------------------------------------------
--------------------------------------------------------------------------------------------


--10--8--7--5-------3--------
--------------------------------
--------------------------------
--------------------------------


---------7--5--3-------------------8--7--5---------------8--8--7--8----10----10-------
--5--3-----------------3-------5------------------5---------------------------------------
--------------------------------------------------------------------------------------------
--------------------------------------------------------------------------------------------


--10--8--7--5-------3-------
-------------------------------
-------------------------------
-------------------------------


--7--7-----7-----7--7-----7-----7--10--3--5-------7-----------
-------------------------------------------------------------------
-------------------------------------------------------------------
-------------------------------------------------------------------


--8--8--8--8--8--7--7--7--7--5--5--7--5-------10------
------------------------------------------------------------
------------------------------------------------------------
------------------------------------------------------------


--7--7-----7-----7--7-----7-----7--10--3--5-------7-----------
-------------------------------------------------------------------
-------------------------------------------------------------------
-------------------------------------------------------------------


--8--8--8--8--8--7--7--7--10--10--8--5-------3------------
----------------------------------------------------------------
----------------------------------------------------------------
----------------------------------------------------------------



Mais également


Petit Papa Noel , la tablature ici

White Christmas, la tablature disponible ici




Tags : picking - débutant - noel

Leave a comment

We need to verify that you are not a robot generating spam.

See legal mentions

Don't forget that insults, racism, etc. are forbidden by Skyrock's 'General Terms of Use' and that you can be identified by your IP address (54.161.100.24) if someone makes a complaint.

Comments :

  • ukulele4ever

    25/12/2011

    Dxtroy95 wrote: "Bonjour
    J'aimerais savoir si dans le même genre vous n'auriez pas "petit papa noël" ?
    Merci d'avance ! =)
    "

    Ah, bonne nouvelle Dxtroy95,

    Voici la tablature de Petit Papa Noel pour Ukulele

    http://www.box.com/shared/ce338xjpgp

    ;)

  • ukulele4ever

    25/12/2011

    Dxtroy95 wrote: "Bonjour
    J'aimerais savoir si dans le même genre vous n'auriez pas "petit papa noël" ?
    Merci d'avance ! =)
    "

    Bonjour,

    Je n'ai pas Petit Papa Noel...

    Mais je vais faire une recherche pour en trouver la tablature,

    Par contre dans le genre, j'ai également White Christmas

    http://home.arcor.de/crazydawg/ukulele/white_christmas.txt

  • Dxtroy95

    23/12/2011

    Bonjour
    J'aimerais savoir si dans le même genre vous n'auriez pas "petit papa noël" ?
    Merci d'avance ! =)

  • ukulele4ever

    25/11/2011

    Dibette wrote: "Salut,
    un petit message tout simple comme tu en as de nombreux sur ton blog pour te remercier de l'avoir créé!!
    Je débute au uku et je dois dire que ton blog est vraiment un mine d'or d'explications de leçons et de tabs je ne suis pas encore très douée mais j’espère prendre de pli assez vite!
    En tout cas suis très contente d'avoir trouvé cette tabs sur ton blog j'vais pouvoir m’entraîner pour la jouer à noël ^^
    "

    Merci pour ton appréciation de mon blog.

    Et bon apprentissage du ukulélé, persévère et bcp de bonheur a jouer tu pourras ressentir.

    A bientôt.

  • Dibette

    24/11/2011

    Salut,
    un petit message tout simple comme tu en as de nombreux sur ton blog pour te remercier de l'avoir créé!!
    Je débute au uku et je dois dire que ton blog est vraiment un mine d'or d'explications de leçons et de tabs je ne suis pas encore très douée mais j’espère prendre de pli assez vite!
    En tout cas suis très contente d'avoir trouvé cette tabs sur ton blog j'vais pouvoir m’entraîner pour la jouer à noël ^^

  • will

    31/12/2008

    slt !
    super blog pr ceux qui débutent ou ceux déjà ds le truc ( idéal pr moi lol )
    ton site est une vraie mine d'or !! merci bcp pr tous les morceaux :)
    sinn je trouve super d'avoir eu cette magnifiique initiative que de créer ce sky
    ... !
    je le surveille déja depuis pas mal de temps et le succès est là !!
    merci bcp pr tous les ukulélistes de france ! même ceux paumés ds des coins pas pssbles comme moi ! ;)
    bonner année et bonnes fêtes , tout le tralala et longue vie à ukulele4ever !!!!!
    kiis a+

  • ukulele4ever

    27/12/2008

    Salut Julien.

    Oui, pour cette chanson, on ne joue pas plusieurs cordes en meme temps.
    C'est un arpège note par note.

    :o)

  • julien

    26/12/2008

    Donc si j'ai bien compris pour cet air on "appuie" jamais sur plusieurs cordes en même temps c'est ça ? (c'est corde par corde )

  • ukulele4ever

    17/11/2008

    Salut Jean.

    Malheureusement je n'ai pas de vidéo a te proposé...

    Si tu préfère les partition sous formes d'accords et non arpègique, je te propose
    WHITE CHRISTMAS sur le lien suivant
    http://home.arcor.de/crazydawg/ukulele/white_christmas.txt

    J'ai visionné tes deux vidéo, c'est pas mal, il ne faut pas se dire que tu joue mal !!
    Raphael Caravane était plutot bien interpréter, et Somewhere over the rainbow avec un peu plus de fluidité dans les changements d'accords deviendra encore de meilleur qualité !

    Bon courage et bonne continuation dans ton apprentissage !!

  • Jean

    16/11/2008

    salut !

    Tu n'a pas une vidéo pour me montrer s'il te plait !!

    a+ merci .

    (pardon de te faire chier mais je suis très débutant et j'arrive pas trop a jouer du ukulélé j'ai 12 ans ) regarde mes vidéos :-}
    je joue mal :-|

    http://www.dailymotion.com/portugais1300/video/x7cca9_caravane-de-raphael-ukulele_music
    http://www.dailymotion.com/portugais1300/video/x7c89g_somewhere-over-the-rainbow-ukulele_music

Report abuse