Partition ; Killing me softly - Fugees




Ah !!
"Killing me softly" des Fugees
Ok, comme ça, sa ne vous rappelle peut être pas grand chose...
mais allez y....essayer la partition....puis vous vous direz "Ah oui...."

Bon, je mets tout de même un ptit lien faire la version originel ; ici
 



Rem : cliquer sur l'image pour un agrandissement


Partition ; Killing me softly  - Fugees



Tags : facile - picking - partition

Leave a comment

We need to verify that you are not a robot generating spam.

See legal mentions

Don't forget that insults, racism, etc. are forbidden by Skyrock's 'General Terms of Use' and that you can be identified by your IP address (54.161.100.24) if someone makes a complaint.

Comments :

  • jbvoinet

    17/05/2016

    Bonjour,

    La partition est à cette adresse et elle est gratuite : http://www.partitionsdechansons.com/pdf/2819/G.-Nimbel-C.-Fox-Killing-me-softly.html

  • jbvoinet

    25/04/2016

    Merci. Elle est ici en plusieurs exemplaires pour comparer : http://www.partitionsdechansons.com/pdf/2819/G.-Nimbel-C.-Fox-Killing-me-softly.html

  • ukulele4ever

    30/07/2012

    ukulechris wrote: "Merci pour ce morceau sympa : je le cherchais justement ! je vais essayer de trouver des arrangements et vous en ferai part ! Merci "

    Oui oui très sympa ce morceau , j’apprécie toujours fortement de le jouer.

    Ok, pas de soucis, je suis preneuse pour d’éventuel arrangements.

    ;)

  • ukulechris

    30/07/2012

    Merci pour ce morceau sympa : je le cherchais justement ! je vais essayer de trouver des arrangements et vous en ferai part ! Merci

  • Adrien

    16/06/2010

    Moi je joue comme sa, c'est plus facile pour ceux qui galère

    A-------0----------------------------0---0-2---3-2-----0--
    E-0-1-3---3---3--5-3-1-0-1-----0-1-3---3-----3-----3-3----
    C-----------2--------------0------------------------------

    A-3-0--------------------------3-3-3-3-0-------2-2-2-2----
    E-----1-0---0-1--3-3-3-4-4-5-7-----------0-3-1---------3-0-
    C---------2--------------------------------------------------

    A---------0-3-2-0--5-5-5--3-2---2-0--0-0-3-0---------------------------
    E-0-0-0-0---------------------3----------------3---3-1--1-1-0-------0--
    C------------------------------------------------0------------2-2-2----

    A-3-2-0-0-2-3-2-3-2------------
    E-------------------3-3---5----
    C------------------------------

  • RockBunny

    02/06/2009

    Juste pour préciser: Killing me softly c'est à la base une chanson des Carpenters.

  • ROMANCExFACTORY

    19/07/2008

    j'ai un peu de mal avec les tablature alors si tu pouvais donner les accords àça serait sympa
    Merci beaucoup!

  • valuch

    10/07/2008

    salut, en jouant cette chanson je me suis demander si tu pourait trouver la tab de "La vie en rose" d'edith piaf s'il te plait sa serais vraimen cool de ta par et en fait merci pour tou se qui est sur ton blog sa gére !!

  • singe-en-plastik

    27/05/2008

    ah !

    elle marche ^^

  • singe-en-plastik

    26/05/2008

    bah chez moi l'image s'affiche pas mais ya un lien dans le texte "partition killing me softly - the fugees" qui devrait rediriger vers l'image du sky je pense mais rie nde n'affiche

    et plus bas le lien vers la chanson sur dailymotion

Report abuse