Beethoven - Tab



Petit air connu du grand Beethoven

A|-0---0---1---3---3---1---0---------------------0---0---------------
E|--------------------------------3---1---1---3-------------3---3------
C|-------------------------------------------------------------------------
G|-------------------------------------------------------------------------

A|-0---0---1---3---3---1---0---------------------0-------------------
E|--------------------------------3----1---1---3-------3---1---1------
C|-------------------------------------------------------------------------
G|-------------------------------------------------------------------------

A|---------0------------0-1-0------------0-1-0--------------------------
E|-3---3-------1---3------------1---3-------------3---1---3------------
C|----------------------------------------------------------------0---------
G|---------------------------------------------------------------------------

A|-0---0---1---3---3---1---0---------------------0----------------------
E|--------------------------------3---1---1---3-------3---1---1----------
C|---------------------------------------------------------------------------
G|---------------------------------------------------------------------------





Tags : débutant - partition

Leave a comment

We need to verify that you are not a robot generating spam.

See legal mentions

Don't forget that insults, racism, etc. are forbidden by Skyrock's 'General Terms of Use' and that you can be identified by your IP address (54.166.130.157) if someone makes a complaint.

Comments :

  • ukulele4ever

    26/12/2010

    Elseniorwistiti wrote: "Mon 1er morceau que j'ai réussi à jouer <3"

    Et bien super ! Vivement les prochains morceau appris alors !

  • Elseniorwistiti

    25/12/2010

    Mon 1er morceau que j'ai réussi à jouer <3

  • johnny

    21/05/2010

    hey le portrait c'est pas beethoven mais berlioz!!!!

  • cath132

    08/01/2009

    Merci,
    C'est un morceau qur j'ai appris à la flute à l'école et de pouvoir le jouer au ukulele c'est un vrai plaisir.
    Bonne année 2009, continue encore longtemp ce super blog.

  • LilPoulpe

    05/12/2008

    Pffff.... à celui qui a dit Moonlight Sonata :
    - 1 : Arrête de fumer
    - 2: Arrête la musique
    -3: Arrête de parler.

    Mais l'hymne à la joie est vraiment un beau morceau... A quand le premier mouvement de la 5ème symphonie ???

  • desflam

    20/11/2008

    Ha trop bien apprendre sur un uku cette musique ^^
    Merci a toi pour cette tablature pour les debutant comme moi ^^
    et merci pour tout ton travail sur le Uku c'est super et trop bien expliqué !
    Bonne continuation a toi =)

  • MAT du 25

    19/09/2008

    super blog, j'ai acheté mon uke hier et je m'éclate déjà !

  • jesles

    26/08/2008

    lu ton blog est tro bien continue mé moi j'avai fait
    -0---0---1---3---3---1---0------------------------------------0---0---1---3---3---1---0----------------------------------------------------------------------
    ----------------------------------0---0---2---4---4---2---2------------------------------------0---0---2---4---0---0-------2---2---4---0---2---5---4---
    voila apré c peut etre le ukulélé qui beug sonne faux mé voila cété pour que tu le sache
    continue a +

  • x-anthos

    21/07/2008

    je reeeeeve sonate a la lune... pouaaa!!
    L'hymne a la joie! merci pour le blog!! ;)

  • ukuman

    17/05/2008

    merci pour le titre cool ce morceauen plus c'est facile tu pourrais le mettre en entier si possible?

Report abuse