- Surf in Autumn - Compositeur : Gabriel de la côte d'azure 06



Voici une tablature composée et gentillement proposée par Gabriel de la côte d'azure 06.

La vidéo de cette compo est disponible ICI


Surf in Autumn



-2-----------2-----------2-----------2-----------2-----------2-----------2-----------2-----------2----------
----3-----------3-----------3-----------2------------2-----------2-----------3-----------3-----------3------
-------2-----------2-----------2-----------2------------2-----------2-----------2-----------2-----------2---
----------4-----------4-----------4-----------4------------4-----------4-----------4-----------4----------4-


-2-----------2-------------------2----2----2----2----2----2----2----2----2----2----2----2----5----2----2
----2-----------2----------------3----3----3----3----2----3----3----3----3----2----3----3----3----3----3
-------2-----------2-------------4----4----4----4----4----4----4----4----4----4----4----4----4----4----4
----------4-----------4----------0----0----2----0----0----0----0----2----0----0----0----0----0----0----0


----2----5----2----2----2----3----3----5----3----3----3----5----3----3----3----------5----5----5----5--
----3----3----3----3----3----2----2----2----2----2----2----2----2----2----2----------3----3----3----3--
----4----4----4----4----4----2----2----2----2----2----2----2----2----2----2----------2----2----2----2--
----0----0----0----0----0----0----0----0----0----0----0----0----0----0----2----------4----4----4----4--


--5----5----5----5----5----5----5----5----5----5----------2----2----2----7----2----2----2----7----2----
--2----2----2----3----3----3----3----2----2----2----------2----2----2----2----2----2----2----2----2----
--2----2----2----2----2----2----2----2----2----2----------3----3----3----3----3----3----3----3----3----
--2----2----2----4----4----4----4----2----2----2----------2----2----2----2----2----2----2----2----2----


2----2----7-------7----5----3----2----0--------2----2-------7----2----2------7----2----2------7---------
2----2----2-------0----0----0----0----0--------0----0-------0----0----0------0----0----0------0---------
3----3----3-------0----0----0----0----0--------0----0-------0----0----0------0----0----0------0---------
2----2----2-------0----0----0----0----0--------0----0-------0----0----0------0----0----0------0---------


--------2------2------2------2-------2------2------2------2------------3------3------------3------3---2---
--------3------3------2------2-------3------3------2------2------------5------5------------2------2--------
--------2------2------2------2-------2------2------2------2------------4------4------------2------2--------
--------4------4------4------4-------4------4------4------4------------2------2------------2------2--------


-------------2---------------------
-------------3---------------------
-------------2---------------------
-------------2---------------------



Petite astuce ; à partir du

--5--
--3--
--2--
--4--

maintenez le barré sur la deuxième frette.


Merci a toi Gabriel.


Tags : Compo - facile

Leave a comment

We need to verify that you are not a robot generating spam.

See legal mentions

Don't forget that insults, racism, etc. are forbidden by Skyrock's 'General Terms of Use' and that you can be identified by your IP address (54.196.86.89) if someone makes a complaint.

Comments :

  • bertille

    02/01/2009

    J'ai un soucis je n'arrive pas a atteindre la case 4 (1ere partie du morceau) avec mon petit doight =S

  • Gabriel

    21/05/2008

    http://fr.youtube.com/watch?v=i66W3jWt-9Q

    Voilà la video promise ;)
    A bientôt!!

  • ukuman

    18/05/2008

    ok merci es que ci ce n'est pas trop demander tu pourrais mettre des petits rifs comme l'hymne a la joie de la page précédente.des trucs facil et rapid a aprendre et qui rende bien?stp

  • ukulele4ever

    18/05/2008

    Slt Ukuman.

    Une vidéo pour ce morceau...

    Bien, j'ai demandé a Gabriel de nous fournir un fichier (ou autre) pour que nous puissions écouté ce que donne sa composition.
    Dès qu'il l'aura fait. Je ferrais en sorte que ce dossier soit disponible pour les visiteurs. ;o)

  • ukuman

    17/05/2008

    esqu'il existe une vidéo de ce morcauparce que je n'arrive pas a me représenter le rythme

  • ukulele4ever

    16/05/2008

    Modification de la compo a été faite !

    Oh, ué, ce serait super de pouvoir entendre comment tu joues ton morceau !
    Puis en générale, les exemple auditif sont une aide pour ceux qui veulent rejoué une musique !

  • Gabriel

    16/05/2008

    Par contre juste une petite modif j'ai fais une erreur lors de la réécriture ><
    Pour la fin ce n'est pas :
    ----3---0-----------------2
    ----2----------------------3
    ----2----------------------2
    ----2----------------------2

    MAIS :
    l
    l
    v
    ----3---2-----------------2
    ----2----------------------3
    ----2----------------------2
    ----2----------------------2

  • Gabriel

    16/05/2008

    Pas de souci!!
    Merci a toi =)
    J'espère que cette mélodie plaira ^^
    Pour mon astuce : je maintiens le barré sur la deuxième frette pour l'intro ;)
    Je vais essayé de me trouver une caméra pour filmer ce que ca doit donner et t'nverrai tout ca!!
    A bientot ;)

Report abuse