Seven Nation Army Ukulele

Play the video
Merci a Armand de nous avoir fait partager sa tablature,


Accords utilisés :

E ( 4442 )
G ( 0232 )
D ( 2220 )
C ( 0003 )
B ( 4322 )
A ( 2100 )


Tablature de la vidéo :


-----------------------------------------------------------------------------------------
-----------------------------------------------------------------------------------------
--8-------8---11--- 8 ---- 6 ------ 4 ---------- 3 ----------------------------------
-----------------------------------------------------------------------------------------
(x3)

-----------------------------------------------------------------------------------------
-----------------------------------------------------------------------------------------
--8-------8---11--- 8 ---- 6 ------ 4 ------- 6 --------4---------- 3 --------------
-----------------------------------------------------------------------------------------

E***E***G***E***D***C***B
E***E***G***E***D***C***B
E***E***G***E***D***C***D***C***B

G**G**G**G**G**G**A**A**A**A**A**A

E**E**G**E***D**C**B
E**E**G**E***D**C**B
E**E**G**E***D**C**D**C**D**C**D**C**B**B


Tablature de la version original :

-----------------------------------------------------------------------------------------
-----------------------------------------------------------------------------------------
--8-------8---11--- 8 ---- 6 ------ 4 ---------- 3 ----------------------------------
-----------------------------------------------------------------------------------------


-----------------------------------------------------------------------------------------
-----------------------------------------------------------------------------------------
--8-------8---11--- 8 ---- 6 ------ 4 ------- 6 --------4---------- 3 --------------
-----------------------------------------------------------------------------------------

E**E**G**E**D**C**B
I'm gonna fight them off

E**E**G**E**D**C**B
A seven nation army couldn't hold me back

E**E**G**E**D**C**B
They're gonna rip it off

E**E**G**E**D**C**B
Taking their time right behind my back

E**E**G**E**D**C**B
And I'm talking to myself at night, Because I can't forget

E**E**G**E**D**C**B
Back and forth through my mind, Behind a cigarette

G**G**G**G**G**G**A**A**A**A**A**A
And the message coming from my eyes, Says leave it alone

E**E**G**E**D**C**B
E**E**G**E**D**C**D**C**B
x2

G**G**G**G**G**G**A**A**A**A**A**A

Tags : facile

Leave a comment

We need to verify that you are not a robot generating spam.

See legal mentions

Don't forget that insults, racism, etc. are forbidden by Skyrock's 'General Terms of Use' and that you can be identified by your IP address (54.198.41.76) if someone makes a complaint.

Comments :

  • Xx-MzelleAlbane-xX

    31/05/2013

    génial vraiment super j'adore je vais essayer de faire pareil :D

  • Jordan

    01/01/2012

    Les accords sa correspond a koi ????

  • Henri

    26/01/2011

    moi j'ai trouvé autre chose je sais pas si c juste :
    0-0-3-0----------------0-0-3-0--------------
    ----------3-1-0-------------------3-1-3-1-0
    ----------------------------------------------
    ----------------------------------------------

  • ukulele4ever

    04/11/2010

    Henri D wrote: "c marrant en tripotant le uku j'ai trouvé une toute autre version ^^ :
    0---0-3-0-----------------0---0-3-0--------
    ----------------1-3-1-0------------------1---0
    --------------------------------------------------
    ------------ 0---------------------------0-------
    "

    Merci pour le partage de cette version ;o)

  • Henri D

    01/11/2010

    c marrant en tripotant le uku j'ai trouvé une toute autre version ^^ :
    0---0-3-0-----------------0---0-3-0--------
    ----------------1-3-1-0------------------1---0
    --------------------------------------------------
    ------------ 0---------------------------0-------

  • ukulele4ever

    11/10/2010

    Mimi wrote: "je propose un autre moyen de le jouer
    la première partie
    E --7---7-10-7-5-3-2--

    la deuxième partie
    E --7---7-10-7-5-3-5-3-2-
    "

    Merci Mimi pour ta proposition de version

  • Mimi

    11/10/2010

    je propose un autre moyen de le jouer
    la première partie
    E --7---7-10-7-5-3-2--

    la deuxième partie
    E --7---7-10-7-5-3-5-3-2-

  • Ukileley

    15/04/2010

    Une autre version assez simpas ...

    --2-2-5-2-0-------2-2-5-2-0----0---------------
    ----------------3-2---------------3----3-2---------
    -------------------------------------------------------
    -------------------------------------------------------

    et puis

    -------------------------------------------------------
    --0-0-0-0-0-0-0-0-2-2-2-2-2-2-2-2----------
    --0-0-0-0-0-0-0-0-2-2-2-2-2-2-2-2----------

    ( avec un médiator ca donne mieux )

    ensuite

    --2-2-5-7-5-5-4-2-2-5-7-5-5-7-5-4----------
    -------------------------------------------------------
    -------------------------------------------------------

  • xX-kinder-surpriise-Xx

    13/04/2010

    ouaouh ><
    J'ai reçu mon ukulélé cet aprem'
    Et j'aimerais bien avoir la suite du thème de seven nation army si possible
    Merci beaucoup
    ++

  • klimero

    14/03/2010

    Coucou, je suis tombé sur cet article par hasard, mais j'avais trouvé autre chose pour l'"intro " :

    5-5-8-5-3-1-0---5-5-8-5-3-1-3-1-0
    A jouer sur la corde de A ou de E.

Report abuse