Un coup de main pour My Immortal - Evanescence

Play the video
Hello,

Ma curiosité est portée vers cette version d'Evanescence - My Immortal.

Apparement, il n'y a pas beaucoup de version disponible sur Youtube.

Certes, sur cette vidéo, l'auteur ne chante pas des mieux, mais par contre sa version au ukulélé est excellente !!

Je vous propose de chercher ensemble la tablature...
En nous unissant, peut-être trouverons nous une version assez simillaire tout aussi sympathique.


Bon, je commence...


Apparement pour les accords  (CAPO 2)


l'intro serait en ; G - Bm 
G : 0232
Bm : 4222

l'avant refrain ; Em Bm
Em : 0432
Bm : 4222

Refrain ; Em, C, D, Bm
Em : 0432
C : 0003
D : 2220
Bm : 4222


Toutes vos propositions/suggestions/questions sont les bienvenues :
 
 
Un tout grand merci à mory7 et Giani pour leurs info/aide

Leave a comment

We need to verify that you are not a robot generating spam.

See legal mentions

Don't forget that insults, racism, etc. are forbidden by Skyrock's 'General Terms of Use' and that you can be identified by your IP address (54.198.212.30) if someone makes a complaint.

Comments :

  • Nono

    04/12/2011

    Je pense avoirs trouver le début mais je ne suis pas sur :

    A-------2------------------2-----
    E----3---3--------------2--2----
    C--2------------------2----------
    G-------------4--0--------------4

    Dite moi ce que vous en penser ;)

  • ukulele4ever

    20/04/2011

    Gianni wrote: "J'ai!

    En fait tes accords sont correctes mais il faut les jouer un ton plus haut.
    Pour le reste il suffirait de faire un arpêge sur ses deux accords, en tout cas ca donne très bien chez moi :)

    donc ca donne ca pour l'intro. Sinon dans la musique y'a une variation une fois sur deux que je vous pointe dans la deuxième tab par un petit point d'exclamation devant le 7.

    [A] (6454) [C#] (6444)
    G---------------------------- ]---------------------------
    C---4---4------4---4------4 ]--4---4------4---------
    E---5------5 -----------5-- ]--4------4--------------
    A-----------------4----------]------------------4~~---

    (Variation)
    [A] [C#]
    G---------------------------- ]---------------------------
    C---4---4------4-----4----4 ]--4---4------4----------
    E---5------5 ------!7----5---]--4------4---------------
    A-----------------------------]-------------------4-------

    Voila pour le reste de la chanson tu as les bons accords faut juste les décaler de deux cases vers le bas (capo 2 pour les guitaristes)
    "

    Super super !!!!!

    Grand merci !

    Oui, sa donne vrmt pas mal du tout !

    Et vi vi, 2 tons au dessus c'est nikel !

    ;o)

  • Gianni

    01/04/2011

    J'ai!

    En fait tes accords sont correctes mais il faut les jouer un ton plus haut.
    Pour le reste il suffirait de faire un arpêge sur ses deux accords, en tout cas ca donne très bien chez moi :)

    donc ca donne ca pour l'intro. Sinon dans la musique y'a une variation une fois sur deux que je vous pointe dans la deuxième tab par un petit point d'exclamation devant le 7.

    [A] (6454) [C#] (6444)
    G---------------------------- ]---------------------------
    C---4---4------4---4------4 ]--4---4------4---------
    E---5------5 -----------5-- ]--4------4--------------
    A-----------------4----------]------------------4~~---

    (Variation)
    [A] [C#]
    G---------------------------- ]---------------------------
    C---4---4------4-----4----4 ]--4---4------4----------
    E---5------5 ------!7----5---]--4------4---------------
    A-----------------------------]-------------------4-------

    Voila pour le reste de la chanson tu as les bons accords faut juste les décaler de deux cases vers le bas (capo 2 pour les guitaristes)

  • Gianni

    01/04/2011

    Salut!

    Effectivement c'est vrmt super ce qu'il fait au ukulele et je me disait que plutot que de se tuer à ^tenter de reproduire ce qu'il fait on pourrait partir de la partition piano non?

  • ukulele4ever

    16/02/2011

    Gatha wrote: "je trouve cette intro sympa et bien expliquée : http://www.youtube.com/watch?v=kEZ7D82YICI mais il nous faudrait la suite... :)"

    Oui , j'avais déja eu l'occaz de voir cette vidéo !

    Dommage qu'il n'y ai que l'intro... ^^

  • Gatha

    13/02/2011

    je trouve cette intro sympa et bien expliquée : http://www.youtube.com/watch?v=kEZ7D82YICI mais il nous faudrait la suite... :)

  • CuKe-Folk

    01/02/2011

    Elle est magnifique ! Moi je trouve qu'il chante pas si mal que ça =p .

  • ukulele4ever

    16/01/2011

    mory7 wrote: "Le début avant qu'il chante

    G---2------------------------2 ]---------------------------
    C------1------1--------------- ]-----1--------1--------1--
    E---0------0 ------0-----0----]--4------0--------4-------
    A----------------0----4--------]--------------------------4
    "

    Merci merci pour ta contribution :o)

    Je testerais, voir ce que cela donne au uku, lorsque que je serais chez moi

  • mory7

    15/01/2011

    Le début avant qu'il chante

    G---2------------------------2 ]---------------------------
    C------1------1--------------- ]-----1--------1--------1--
    E---0------0 ------0-----0----]--4------0--------4-------
    A----------------0----4--------]--------------------------4

  • mory7

    15/01/2011

    allé jme penche aussi sur le sujet!!!!

    cela n'a pas l'air d'ètre trop dur!!!

Report abuse