Scarborough Fair


 
Scarborough Fair
 
Tablature (simplifiée)
 
--------0------0--------------
------------3------0--1--0-----
--2--2----------------------2--
---------------------------------
 
 
--0--3--5--3--0--2------0--
------------------------3-------
--------------------------------
---------------------------------
 
 
--5--5--5--3--0--0----------------
-----------------------3--1--0-------
---------------------------------0-----
---------------------------------------
 
 
-----0-----------------------
--------3--1--0-------------
--2---------------2--0--2--
------------------------------
 
 
Mais également la version en accords...

 
Accords utilisés

Am (2000)
G (0232)
D (2220)
C (0003)
 
A 2min 20sec de la vidéo, la rythmique de la main droite est expliquée...
PPIMIP
(Pouce, Pouce, Index, Majeur, Index, Pouce)

G- -x - - - - - - - - - - -  
C- - - x- - - - - - x- - -
E- - - - -x - - -x - - - -
A- - - - - - -x- - - - -- -

G - -P- - - - - - - - - - -
C - - - P- - - - - - P- - -
E- - - - - -i - - -i - - - -
A  - - - - - - -M- - - - - -
 

Tablature a jouer en boucle

Am - G - Am - C
Am - D - Am -C - G
Am - G - Am



 

Tags : Amour

Leave a comment

We need to verify that you are not a robot generating spam.

See legal mentions

Don't forget that insults, racism, etc. are forbidden by Skyrock's 'General Terms of Use' and that you can be identified by your IP address (54.198.212.30) if someone makes a complaint.

Comments :

Report abuse