Le parrain = Ukulele






A-------------------------------------------
E-------------------------------------------
C-------------------------------------------
G----0--5--8--7--5--8--5--7--5--1--3--0


ou
 
 
A----3-6-5-3-6-3-5-3---------------3-6-5-3-6-3-5-3---------------2-5------2-3--------------------------------
E--3----------------------4--6-3---3--------------------3-2-1---1-4------1-4---------6-4-4-3-6-4-4--3--------
C---------------------------------------------------------------------------------------0----------------------2---3-0---
G---------------------------------------------------------------------------------------------------------------------------
 
(merci, a 'visiteur' pour sa version)
 
 
Pour la tablature complète,

Tags : picking - débutant - film

Leave a comment

We need to verify that you are not a robot generating spam.

See legal mentions

Don't forget that insults, racism, etc. are forbidden by Skyrock's 'General Terms of Use' and that you can be identified by your IP address (54.162.253.34) if someone makes a complaint.

Comments :

  • ukulele4ever

    17/03/2013

    Pour vous servir wrote: "A----3-6-5-3-6-3-5-3--------------3-6-5-3-6-3-5-3---------------2-5------2-3------------------------------
    E--3---------------------4--6-3---3--------------------3-2-1---1-4------1-4---------6-4-4-3-6-4-4-3--------
    C--------------------------------------------------------------------------------------0---------------------2-3-0-
    G--------------------------------------------------------------------------------------------------------------------
    "

    Merci...je partage en modifiant légèrement mon article.

  • Pour vous servir

    16/03/2013

    A----3-6-5-3-6-3-5-3--------------3-6-5-3-6-3-5-3---------------2-5------2-3------------------------------
    E--3---------------------4--6-3---3--------------------3-2-1---1-4------1-4---------6-4-4-3-6-4-4-3--------
    C--------------------------------------------------------------------------------------0---------------------2-3-0-
    G--------------------------------------------------------------------------------------------------------------------

  • antho-le-cavalier

    02/01/2012

    ^^

  • ukulele4ever

    15/04/2010

    Salut, il faut uniquement gratter la G

  • amateur

    15/04/2010

    jai une kestion jai eu mon premier ukulele hier et je ne sai pas sil fo grater toute les corde ou alors juste la G

  • phinoo

    20/02/2010

    c bien car c facil mais y a pas les paroles AVEC LE RYTHME !! C DOMMAGE

  • twistan04

    11/02/2010

    Salut sa fait 1 jour que j'ai commencer a faire du ukulele et je sais la faire :) Merci super blog!

  • weko-pnk

    01/02/2010

    Génial !! :D Merci beaucoup !!

  • Juh

    12/09/2009

    Pour la fin de cette tabs j'ai trouvé :

    A-------------------------------------------
    E-------------------------------------------1
    C-------------------------------------------
    G----0--5--8--7--5--8--5--7--5--1--0—

    A----------2--5---------2--3----------------------
    E---1--4---------1--4---------------------------
    C-------------------------------------------
    G--------------------------------------------

    mai par contre la suite j'y arrive pa :)

    super ton blog il ma vachement aider a maméliorer !
    Merci =)

  • ukulélé 3

    08/08/2009

    ça serai géniial si yavé une version avec des accord

Report abuse