Deep Purple - Smoke on The water :

A vous de jouer !

A-----------0----------1---0----------0------------------------------
E---0---3------0---3-----------0---3------3----0---------------------
C----------------------------------------------------------------------
G----------------------------------------------------------------------


OU


A-------------------------------------------------------------
E---3--6--8----3--6--9--8----3--6--8----6--3-------------
C---2--5--7----2--5--8--7----2--5--7----5--2-------------
G-------------------------------------------------------------


(merci a Alexis pour sa version)

mais encore

A ---------------------------------------------------------------------------
E ---------------------------------------------------------------------------
C ---0----3----5---------0----3---6---5-------0----3---5----3----0-----
G ---0----3----5---------0----3---6---5-------0----3---5----3----0-----


(merci a Nicolas pour cette version)

Tags : facile

Leave a comment

We need to verify that you are not a robot generating spam.

See legal mentions

Don't forget that insults, racism, etc. are forbidden by Skyrock's 'General Terms of Use' and that you can be identified by your IP address (54.161.100.24) if someone makes a complaint.

Comments :

  • Seb33

    14/05/2012

    Super, merci. J'ai l'impression d’être un pro ;)

  • Wolf21000

    03/01/2012

    That's what we can call a good song ........... i play it every day

  • ..

    05/01/2011

    Le mieu c'est de la jouer en accord MI sol la, Mi Sol La# la

  • xavier

    28/03/2010

    merci por cette tab moi je vien de commencer et ji sui arrivé en 20 min sinon genial le blog

  • jerem-46--xd

    26/01/2010

    j'en ai une bocoup plus simple pour les mégas débutant ^^ c'est

    1_0_3_5_0_3_6_5_0_3_5_3_0
    2________________________
    3________________________
    4________________________

  • pierre76

    18/07/2009

    et encore une autre façon (j'espère jamais mise ^^)très facile voila ++(pardonner les erreurs si il y a)

    A-------------------------------------------
    E----------------------------------------
    C---0---2---4----0---2----5--4----0---2---4----3--0
    G------------------------------------------------------

  • nathan

    25/06/2009

    la suite du 1er.

    A-------------------------------------
    b--0--3--3--0--3--0--3--3--0--3--3--0--3( le doig gllisse le long du ukulélé pour le dernière note.)
    c----------------------------------
    d--------------------------------

  • valentin

    10/05/2009

    Bon ben vu que tout le monde te chie dessus pour ton erreur ,je vais faire de meme!
    Comment peut-on confondre......ca me fout les boules des erreurs pareilles!
    Sinon trop cool ton blog,merci bcp!

  • Sharkpeter

    02/04/2009

    Merci pour ce blog nickel pour un nouveau ukulélétiste XD

  • treues-de-montagny

    25/12/2008

    saluuuutt ! jviens d'avoir un ukulélé pour noel et justemen, jpensais que ça serait les même accords que la guitare et tous ça mé non ^^ donc j'suis venu visiter ton site pour en savoir un peu + et il m'a l'air très complet ! surtout ne le suprime pa !!! j'en aurais bien besoin !!!! merci pour tous renceignement!

Report abuse