107 tagged articles facile

Deep Purple - Smoke on The water : 04/12/2006

A vous de jouer !

A-----------0----------1---0----------0------------------------------
E---0---3------0---3-----------0---3------3----0---------------------
C----------------------------------------------------------------------
G----------------------------------------------------------------------


OU


A-------------------------------------------------------------
E---3--6--8----3--6--9--8----3--6--8----6--3-------------
C---2--5--7----2--5--8--7----2--5--7----5--2-------------
G-------------------------------------------------------------


(merci a Alexis pour sa version)

mais encore

A ---------------------------------------------------------------------------
E ---------------------------------------------------------------------------
C ---0----3----5---------0----3---6---5-------0----3---5----3----0-----
G ---0----3----5---------0----3---6---5-------0----3---5----3----0-----


(merci a Nicolas pour cette version)

Tags : facile

Je l'aime a mourir 23/09/2007

Play the video


]Voici une petite remise a jour de la partition; car le lien précédent n'étant plus accessible...
et que plusieurs internautes souhaitaient pouvoir jouer cette partition/tab...





Version, simplifiée ;


----2-2-2-2--0-0-0----------------2-2-2-2--0-0-0--------------0---------2-------------------
------------------------3-3-3--------------------------3-3-3---3----3--3-----------------------
-2---------------------------------2----------------------------------------------------------2--
--------------------------------------------------------------------------------------------------



---3-3-3-3--2-2-2--0-0-0-------3-3-3-3---2--2--0-0-0------0----
---------------------------------------------------------------3---3--
---------------------------------0------------------------------------
----------------------------------------------------------------------



--0-2---0---0-2-----0----0--2---------------------
-------3---3-------3---3-----------------2--2------
------------------------------------------------------
------------------------------------------------------


--2-2-2-2--0-0-0----------------2-2-2-2--0-0-0--------------0---------2-------------------
----------------------3-3-3--------------------------3-3-3---3----3--3-----------------------
---------------------------------2----------------------------------------------------------2--
------------------------------------------------------------------------------------------------



---3-3-3-3--2-2-2--0-0-0-------3-3-3-3---2--2--0-0-0------0----
---------------------------------------------------------------3---3--
---------------------------------0------------------------------------
----------------------------------------------------------------------



--0-2---0---0-2-----0----0--2-------------------
-------3---3-------3---3-----------------2--2----
---------------------------------------------------
---------------------------------------------------







Les accords pour Ukulélé acordé en DO sont disponibles ICI




Le mouvement de la main droite effectué pour les accords ; haut-bas-haut-bas-(silence)-bas-haut






Paroles

Moi je n'étais rien et voilà qu'aujourd'hui,
Je suis le gardien du sommeil de ses nuits. Je l'aime à mourir
Vous pouvez détruire tout ce qui vous plaira
Elle n'a qu'à ouvrir l'espace de ses bras
Pour tout reconstruire. Pour tout reconstruire. Je l'aime àmourir

Elle a gommé les chiffres des horloges du quartier
Elle a fait de ma vie des cocottes en papier, des éclats derire
Elle a bâti des ponts entre nous et le ciel
Et nous les traversons à chaque fois qu'elle
Ne veut pas dormir. Ne veut pas dormir. Je l'aime à mourir

Refrain

Elle a dû faire toutes les guerres pour être aussi forteaujourd'hui,
Elle a dû faire toutes les guerres de la vie et l'amour aussi.

Elle vit de son mieux ses rêves d'opaline
Elle danse au milieu des forêts qu'elle dessine. Je l'aime àmourir
Elle porte des rubans qu'elle laisse s'envoler
Elle me chante souvent que j'ai tort d'essayer
De les retenir. De les retenir. Je l'aime à mourir

Pour monter dans sa grotte cachée sous les toits
Je dois clouer des notes à mes sabots de bois. Je l'aime àmourir
Je dois juste m'asseoir, je ne dois plus parler,
Je ne dois rien vouloir, je dois juste essayer
De lui appartenir. De lui appartenir.

Je l'aime à mourir

Refrain...

Elle a dû faire toutes les guerres pour être aussi forteaujourd'hui,
Elle a dû faire toutes les guerres de la vie et l'amour aussi.

Moi je n'étais rien et voilà qu'aujourd'hui,
Je suis le gardien du sommeil de ses nuits. Je l'aime à mourir
Vous pouvez détruire tout ce qui vous plaira
Elle n'a qu'à ouvrir l'espace de ses bras
Pour tout reconstruire. Pour tout reconstruire. Je l'aime àmourir







Tags : facile - picking - partition

Happy Birthday to You !! 09/12/2006

Play the video

 



C'est peut etre votre anniversaire bientot...ou celui d'un proche ou un ami, donc je vous propose de jouer joyeux anniversaire facilement.

La vidéo vous propose la tablature sous forme d'accord ( même principe qu'un karaoké)


Et ci dessous, la tab sous forme arpègique :




A-------------------------------------------------3-0-------------------1-1-0-------------
E---------------1-0---------------3--1-----------------1-0----------------------1--3--1--
C---0--0-2-0---------0-0-2-0------------0-0----------------2-2-------------------------
G-------------------------------------------------------------------------------------------




Pour ceux qui le souhaitent, une tablature un peu plus complexe disponible ici





Tags : facile - Joyeux anniversaire

How play somewhere over the rainbow. 19/07/2007

Play the video




Somewhere over the rainbow


Les accords utilisés sont :
 
C (0003)
Em (4432)
F (2010)
E7 (1202)
Am (2000)
G (0232)
Tablature :

C - Em - F - C - F - E7 - Am - F
C - Em - F - C - F - C - G - Am - F
C Em F C F C G Am F
C - G - Am - F
C - G - Am - F
C - Em - F - C - F - C - G - Am - F
Somewhere Over The Rainbow 
(écrite par E.Y Harburg et composée par Harold Arlen)
fut initialement interprétée par Judy Garland dans le film
le Magicien d'Oz

Mais voila, de fin 1930 aux années 90...
Quelques années ce sont écoulée
On pourrait presque humoristiquement parlant, dire que
nous sommes passée d'OZ à IZ
^^



La chanson 'Somewhere Over the Rainbow' interprété au Ukulele
fut ces dernières années largement répandue grâce à Israël Kamakawiwo'ole (IZ),
ses interprétation/vidéo circulent un peu partout sur le net ainsi que dans les hit parade.
Israël K décédé en juin 1997, lors de ses funérailles,
les drapeaux de L'Etat d'Hawai ont été mis en berne sur les bâtiments fédéraux.
Plus de 15 000 personnes ont assisté à ses obsèques.
Ses cendres sont dispersées dans l'océan Pacifique à Makua Beach ;
cfr fin de la vidéo version interprètée par Israel lui même





Tags : facile

The offspring - Why don't you get a job 06/08/2007

Play the video

 




Donc je me souviens jamais des pseudo des gens donc je vais vous appeler les gens donc un gens parmi vous n'est pas doué avec les accords :| si, je te jure !
Donc je vais vous montrer les accords en tablature en premier et par dessus les paroles je placerais les accords !!

Les accords dont vous avez besoin ;

G - D - A - (E)

Certain se demanderons pourquoi m'ont " G " n'est pas comme le leurs c'est donc parce que c'est un G simplifier


Les accords :


G : 0232

D : 0222

(E : 4442)

A : 2100







La chanson :



DxxxxxxxxxxxxxxxxxxxxxxxG
My friend's got a girlfriend man he hates that bitch
DxxxxxxxxxxxxxA
he tells me every day
xxxxxxxxDxxxxxxxxxxxxxxG
he says man i really gotta lose my chick
DxxxxxAxxxxxxxD
in the worst kinda way

DxxxxxxxxxxxxxxxxxG
she sits on her asS he works his hands to the bone
xxxxDxxxxxxxxxxA
to give her money every payday
xxxxxxDxxxxxxxxxxxxxxG
but she wants more dinero just to stay at home
xxxxDxxxxAxxxxxD
well my friend you gotta say


[Chorus]
xxxDxxxxxxxxxxG
i won't pay, i won't pay ya no way
xxxxDxxxxAxxxxxD
nana why don't you get a job
xxxxDxxxxxxxxxxxxxG
say no way, say no way, no way
xxxxxxDxxxxx AxxxxxxxD
nana why don't you get a job

xxxxxxxDxxxxxxxxxxG
i guess all his money, well it isn't enough
xxxxxxxDxxxxxxxxxxx A
to keep her bill collecters at bay
xxxxxxxDxxxxxxxxxxxG
i guess all his money, well it isn't enough
xxxxxxxDxxxxxxxAxxxxxxxD
cuz that girl's got expensive taste


[chorus]
xxxxxxDxxxxxxxxxxxxG
i won't pay, i won't pay ya no way
xxxxxxxDxxxxxAxxxxxxD
nana why don't you get a job
xxxxxxDxxxxxxxxxG
say no way, say no way, no way
xxxxxxDxxxxxAxxxxxxD
nana why don't you get a job



xxxxxDxxxxxxxx G
well i guess it ain't easy
xxxxxDxxxxxxxxA
doing nothing at all oh yeah
xxxxxDxxxxxxxxxG
but hey man free rides just don't
xxxxDxxxxxxx AxxxxxD
come along every day



xxxxxDxxxxxxxxxxxxxxxxxxxG
my friend's got a boyfriend, man she hates that dick
xxxxD xxxxxxxA
she tells me every day
xxxxDxxxxxxxxG
he wants more dinero just to stay at home
xxxxxDxxxxxA xxxx D
well my friend you gotta say



[Chorus]
xxxxxDxxxxxxxG
i won't pay, i won't pay ya no way
xxxxxDxxxxxAxxxxxD
nana why don't you get a job
xxxxxDxxxxxxxG
say no way, say no way, no way
xxxxxDxxxxx AxxxxD
nana why don't you get a job
xxxxxD xxxxxxxG
I won't give you no money I always pay
xxxxxDxxxxxA xxxxxD
Nana why don't you get a job
xxxxxD xxxxxxG
Say no way, say no way, no waaaaaay
xxxxxDxxxxxA xxxxxxxDDDDDDDDDDD D D D DDDD
nana why don't you get a joooooOOOOOOOOB




Tags : facile